Lesson Untuk Gitar Dan Bass



LESSON UNTUK GITAR & BASS...

ternyata chord-chord sederhana seperti chord 5 dan chord 8, contoh : C5 dan C8, kedua chord ini bisa dieksplor sedemikian rupa sehingga bisa menghadirkan permainan yg sangat dan amat cepat, baik di gitar maupun bass, caranya ???

*Contoh di Gitar

E|------------------------
B|------------------------
G|---------------5-------
D|---------5-------------
A|----0-3---0-3---------
E|------------------------

*Contoh di Bass

G|---------------5-------
D|---------5-------------
A|----0-3---0-3---------
E|------------------------

mainkan kedua lesson diatas dengan chord pengiring C5 & C8, mainkan dengan tempo cepat (bila belum sanggup mulai dari tempo pelan lalu sedang lalu cepat)

#Selamat Berlatih dan GOOD LUCK ...


(Words/Lesson By Dani Mkd @Reyal Musik)

 
*harap dan mohon untuk selalu sertakan sumber arsip/artikel jika ingin copy-paste, etika dalam berbagi adalah modal dasar moralitas yang kreatif, jujur, beruntung dan cerdas. 

No comments:

Post a Comment

Related Posts Plugin for WordPress, Blogger...