Belajar Kunci Keren Gitar, Piano, Bass - Chord Picking, Pendekatan Kromatik

Kursus Les Gitar Bass Drum Keyboard Piano di Jakarta Timur .. Murah Tapi Mantap Dan PRO
OPEN STRING CHORD PICKING, CHROMATIC APPROACH ?

Cara menerapkan chord / kunci minor sus 2 dan augmented

ini adalah salah satu teknik yang bisa menghadirkan sugesti sound yg penuh misteri dan suasana yg dalam.. teknik bermain seperti ini sering dimainkan di petikan-petikan gitar (chord picking), juga di keyboard piano, dan bisa pula dipraktekkan kedalam permainan bass... sound yg sedikit bernuansa glum, misterius dan pengkhayatan, sangat cocok bagi kamu yg suka dengan bunyi-bunyian yg menyentuh, misterius dan ilusi... kenapa disebut juga chromatic approach atau pendekatan kromatik? karena chord yg dimainkan memiliki formula yg berjarak setengah didalamnya, ada pendekatan kromatik, contoh: Amsus2 formulanya A, C, E, B coba perhatihan C dan B berjarak setengah kan? ... nah dibawah ini ada sedikit praktek di gitar untuk tipe permainan seperti ini dengan menggunakan progresi Amsus2, Dmsus2, E+

*Amsus2
------------------------------
----------0---------0-------
--------5--5------5--5-----
------7-----7---7-----7----
---0---------0---------------
------------------------------

*Dmsus2
------0---------0----------
-----6--6-----6--6---------
----7-----7--7-----7------
---0--------0--------------
------------------------------
------------------------------

*E+
-----------------------------
---------0--------0---------
-------5--5-----5--5------
-----6------6--6-----6----
-----------------------------
---0----------0-----------

urutan mainnya: Amsus2 - Dmsus2 - Amsus2 - E+



-> Anda bisa juga mempraktekkan ini di piano dan bass. 


*selamat mencoba.

(Words/Lesson By Dani Mkd @Reyal Musik)




*harap dan mohon untuk selalu sertakan sumber arsip/artikel jika ingin copy-paste, etika dalam berbagi adalah modal dasar moralitas yang kreatif, jujur, beruntung dan cerdas.

2 comments:

  1. Thanks'mas sangat bermanfaat nih buat yang lagi belajar bass otodidak

    ReplyDelete

Related Posts Plugin for WordPress, Blogger...