Teknik Picking Penting Gitar Dan Bass Yang Sering Diabaikan

LATIHAN PICKING GITAR & BASS TERPENTING YANG SERING DIABAIKAN, ATAU BISA JADI TIDAK TAHU (*PADAHAL SANGAT MEMPENGARUHI KUALITAS SKILL PERMAINAN); 





*GITAR: Latihan Vertical Picking (Chord Picking) 

---------------------------10--12-15-12--10---------------------------
--------------------10--12--13----------13--12--10-------------------
--------------9--11--12-------------------------12--11--9-------------
-------9---11-12---------------------------------------12--11-9-------
----11--12----------------------------------------------------12-11----
--12-----------------------------------------------------------------12--


untuk pickingnya;
uduuduuduuduududuuuduuduuduud (*U:upstroke, D:downstroke)
 




*BASS: Latihan Vertical Picking (Chord Picking)

--------------9----11-14-11--9-----------------------------------
-------9---11--12---------12---11---9----------------------------
----11--12-------------------------12--11-------------------------
--12---------------------------------------12-----------------------


untuk pickingnya;
uduuduududuuuduud
(*U:upstroke, D:downstroke)


 
**~> CATATAN: latih menggunakan pick, dan mulai dari tempo pelan (harus rapi mainnya), setelah stabil temponya, masuk ke tempo sedang (normal), dan jika lancar lanjutkan ke tempo cepat (semampunya). Teknik picking ini sangat mempengaruhi kualitas permainan vertikal / struktural / chording didalam permainan gitar maupun bass, permainan tipe ini adalah permainan yang sangat menarik dan rumit serta berkelas jika sudah mampu menguasai juga eksplor nada-nadanya. sayangnya banyak yang melewati latihan picking semacam ini, kebanyakan hanya mentok di alternate picking yang bersifat horizontal, padahal vertical picking / chord picking jauh lebih impresif secara karakter permainan. Teknik ini dominan dan sangat mempengaruhi kemampuan bermain petikan, ritem, melodi, skipping, presisi sampai teknik improvisasi, jadi ini adalah fundamental, tak bisa maka tak akan ideal menjadi seorang player yang mumpuni, harus bisa !!! 

(Words/Lesson By Dani Mkd @Reyal Musik)

1 comment:

Related Posts Plugin for WordPress, Blogger...